YESTERDAY- THE BEATLES 

 

INTRO

e|-------------------|

B|--------0----------|

G|--------0----------| x4

D|-----0-----0-------|

A|-------------------|

E|--3----------------|

 

VERSE

e|-------------------------------------------------0--2--3-----2---------0----|

B|------------------------------------0--2--4-------------------------0-------|

G|--2p0--0---------------------------------------------------------0----------|

D|---------0-----------0------------------------------------------------------|

A|------------------0-----0---------------------------------------------------|

E|--3-----------3---------------2------------------------------0--------------|

 

e|--0-----------------0-------------------------------------------|

B|--------------------1-----3-1--0-------1-------0---0-----------|

G|------0---0-------------------------2---------0------------2----|

D|--2-----0-----------------0----------------------------0--------|

A|---------------3------------------------------------------------|

E|----------------------------------------3-----------3------2----|

 

e|----------------------------------------------------------------|

B|--------0-------------0------------0-----0------0---------------| these 3

G|--0-----------2-------------0----------------------0------------| lines

D|-----2----2--------2----2-------2------------0---------0--------| are x2

A|--------------0-------------3-----------------------------------|

E|--0--------------------------------------3----------------------|

 

CHORUS

First half

e|----------------------------0------2------3------2--0-------|

B|--0--------0------------------------------------------------|

G|------2------------2-----------0-------0-----0--------------|

D|----------------1-----1-----2------0------------------------|

A|-----------2------------------------------3-----------------|

E|--2---------------------------------------------------------|

 

 Second half a)                       Second half b)

e|--2------0---------0----------------| -2------0---------2---3--------------------|

B|-------3-----3----------3-----------| ------3----3-----------------3----1----0---|

G|-----2-----------3---3-----0------0-| ----2---------2---2-------0----0----0----0-|

D|--0----------0------------------0---| -0---------0-------------------------------|

A|------------------------------------| -------------------------------------------|

E|------------------------3----3------| ----------------------3--------------------|

 

Play the first half, then the second a, then the first half again, then the second

half b.